Bem vindo ao mundo encantado das 4 cordinhas mágicas

Como tocar A better life, Grace VanderWaal, no ukulele

Aprenda a tablatura e os acordes para acompanhamento, com ou sem capotraste e como mudar o tom

Esta canção foi publicada hoje, dia 03 de novembro de 2017, do novo disco da Grace, “Just the Beginning”.

Assista à aula no nosso canal no youtube: https://www.youtube.com/watch?v=swe5swJrvhI

For the same tutorial in english, follow this link: https://www.youtube.com/watch?v=N28LDBr8tmA

Grace VanderWaal
A Better Life
Album: Just the beginning
Tablatura por João Tostes / Toca Ukulele


Sem capostraste / Without capo:
    G                      G7M [GMaj7] 
A|-----------10---------------------9------------|
E|-----7----------7-----7-----7---------7-----7--|
C|--7-----7----------7-----7-----7---------7-----|
g|-----------------------------------------------|
    C
A|-----------7----------------------7------------|
E|-----7----------8-----8-----8---------8-----8--|
C|--7-----7----------7-----7-----7---------7-----|
g|-----------------------------------------------|


Com capo na 7ª casa / Capo at 7th fret:

A|------------3---------------------2------------|
E|-----0----------0-----0-----0---------0-----0--|
C|--0-----0----------0-----0-----0---------0-----|
g|-----------------------------------------------|

A|-----------0----------------------0------------|
E|-----0----------1-----1-----1---------1-----1--|
C|--0-----0----------0-----0-----0---------0-----|
g|-----------------------------------------------|

No tom de Eb (exemplo do vídeo) / Eb key (video example):

A|------------6---------------------5------------|
E|-----3----------3-----3-----3---------3-----3--|
C|--3-----3----------3-----3-----3---------3-----|
g|-----------------------------------------------|

A|-----------3----------------------3------------|
E|-----3----------4-----4-----4---------4-----4--|
C|--3-----3----------3-----3-----3---------3-----|
g|-----------------------------------------------|

 

Print Friendly, PDF & Email
Compartilhe!

0 respostas em "Como tocar A better life, Grace VanderWaal, no ukulele"

    Deixe sua mensagem

    O seu endereço de e-mail não será publicado. Campos obrigatórios são marcados com *

    © 2015 - 2017 Toca Ukulele
    X