Bem vindo ao mundo encantado das 4 cordinhas mágicas

Cifra ukulele: System of a Down – Toxicity

Aprenda a tocar a música "Toxicity" do System of a Down, no ukulele, com todos os acordes e batidas, incluindo vídeo aula completa!

Esta é a cifra da aula de Toxicity, do System of a Down. Para acessar a vídeo aula no youtube, clique aqui.

Para tocar acompanhando o vídeo, acesse o Play-Along desta música neste link.

 

 

System of a Down
Toxicity

KzmA / Toca Ukulele


Intro:
A|---------------------------|
E|----3---3---3---3---3---3--| 
C|--0---0---0---0---0---0----|
g|---------------------------|

A|---------------------------|
E|----6---6---6---6---6---6--|
C|--3---3---3---3---3---3----|
g|---------------------------|

A|---------------------------|
E|----3---3---3-4---4-3---3--|
C|--0---0---0-----0-----0----|
g|---------------------------|

A|---------------------------|
E|----6---8---8-6---6-4---4--|
C|--3---3---3-----3-----3----|
g|---------------------------|

Passagem 1: (Repete 2x)
    Cm                  G#  G
A|---------------------------|
E|---------------------------|
C|--0------3/2-0h2--0--------|
g|---------------------------|

Passagem 2: (Repete estas notas da tablatura 4x durante o Cm)
    Cm                  G#  G
A|---------------------------|
E|---------------------------|
C|--3/2-0h2--0h2--[tudo 4x]--|
g|---------------------------|

Passagem 1: (1x)
    Cm                  G#  G
A|---------------------------|
E|---------------------------|
C|--0------3/2-0h2--0--------|
g|---------------------------|

[Repete Intro com os acordes]
    Cm
A|---------------------------|
E|----3---3---3---3---3---3--|
C|--0---0---0---0---0---0----|
g|---------------------------|

    D#
A|---------------------------|
E|----6---6---6---6---6---6--|
C|--3---3---3---3---3---3----|
g|---------------------------|

    Cm
A|---------------------------|
E|----3---3---3-4---4-3---3--|
C|--0---0---0-----0-----0----|
g|---------------------------|

    D#
A|---------------------------|
E|----6---8---8-6---6-4---4--|
C|--3---3---3-----3-----3----|
g|---------------------------|


Durante o próximo verso, segundo uke faz o seguinte dedilhado (atenção à segunda parte).
Dedilhado 2:

    Cm
A|---------------------------|
E|----3---3---3---3---3---3--|
C|--0---0---0---0---0---0----|
g|---------------------------|

    D#
A|--------5-----6-----5-----|
E|----6-----6-----6-----6---|
C|--3---3-----3-----3-----3-|
g|--------------------------|

    Cm
A|------------------------|
E|---3--3--3-4---4-3---3--|
C|--0--0--0--- 0-----0----|
g|------------------------|

    D#
A|------------------------|
E|----6--8--8-6---6-4---4-|
C|--3--3--3-----3-----3---|
g|------------------------|


Cm                  D#
       Conversion, software version 7.0
Cm                                         D#
     Looking at life through the eyes of a tire hub
Cm                  D#
Eating seeds as a pastime activity
Cm                         D#
       The toxicity of our city, of our city

-- [Refrão, vai repetir mais 2 vezes toda essa parte] --
[Durante o próximo verso, uke 2 faz a "Passagem 1" em "world"]
A|---------------------------|
E|---------------------------|
C|--0------3/2-0h2--0--------|
g|---------------------------|

Cm                       (Passagem 1)
You, what do you own the world?
                  G#        G
How do you own disorder, disorder

[Durante o próximo verso, uke 2 faz a "Passagem 1" em "between"]

Cm              (Passagem 1)
Now, somewhere between the sacred silence
G#                  G
Sacred silence and sleep

[Durante o próximo verso, uke 2 faz a "Passagem 2" em "somewhere"]
(Repete estas notas da tablatura 4x durante o Cm)
A|---------------------------|
E|---------------------------|
C|--3/2-0h2--0h2--[tudo 4x]--|
g|---------------------------|

Cm
Somewhere,
              G#                G
Between the sacred silence and sleep

[Durante o próximo verso, uke 2 faz a "Passagem 1" no segundo "disorder"]

Cm           (Passagem 1)
Disorder, disorder,
G#    G
disorder
-- [Fim do refrão] --


[Repete Intro com os acordes]
    Cm
A|---------------------------|
E|----3---3---3---3---3---3--|
C|--0---0---0---0---0---0----|
g|---------------------------|
    D#
A|---------------------------|
E|----6---6---6---6---6---6--|
C|--3---3---3---3---3---3----|
g|---------------------------|
    Cm
A|-------------------------------|
E|----3---3---3---3-4---4-3---3--|
C|--0---0---0---0-----0-----0----|
g|-------------------------------|
    D#
A|---------------------------|
E|----6---8---8-6---6-4---4--|
C|--3---3---3-----3-----3----|
g|---------------------------|


Durante o próximo verso, segundo uke repete o "Dedilhado 2"


Cm                      D#  
    More wood for the fires, loud neighbors
Cm                                     D#
    Flashlight reveries caught in the headlights of a truck
Cm                 D#
Eating seeds as a pastime activity
Cm                       D#
    The toxicity of our city, of our city

[-- Repete refrão inteiro --]

Passagem 3: Repete este grupo 2x sem acordes (só um ukulele).
Depois, repete este grupo 4 vezes, um uke continua, outro uke faz o acorde de Cm.

A|---------------------|
E|---------------------|
C|--0-0-0-0-0-0-3-0-2--|
g|---------------------|

A|-----------------------|
E|-----------------------|
C|--0-0-0-0-0-0-0-3-0-2--|
g|-----------------------|



[-- Repete refrão inteiro com mais força na voz --]

Passagem 3: Repete este grupo 2x com os acordes indicados no outro uke.
    Cm          D#  D#7M
A|----------------------|
E|----------------------|
C|--0-0-0-0-0-0-3-0-2---|
g|----------------------|

    Cm            D#  D#7M    
A|------------------------|
E|------------------------|
C|--0-0-0-0-0-0-0-3-0-2---|
g|------------------------|


Passagem 3: Uke 2 continua repetindo a "Passagem 3" até o final

Cm      D#        D#7M
When I became the sun
Cm                     D#   D#7M
I shone life into the man's hearts

Cm      D#         D#7M
When I became the sun
Cm                    D#     D#7M
I shone life into the man's hearts.


Print Friendly, PDF & Email
Compartilhe!

Deixe um comentário

avatar
  Subscribe  
Notify of
© 2015 - 2019 Toca Ukulele

 

3º Festival Brasileiro de Ukulele

Vagas limitadas, inscreva-se já!

X