Este corpo já foi lar – Cifra e tablatura (para ukulele high G)

Este corpo já foi lar
Carol Tostes | Toca Ukulele

CIFRA PARA UKULELE HIGH G
Versão tocada por Carol Tostes na gravação do single

Tom F

[Tab - Intro]

   Dmadd4   Gm6 Bdim A7
A|------0---------1—-------2--------0--|
E|---1--------0--------1--------0------|
C|-2--------2--------2--------1--------|
g|-----0--------0--------1--------0----|

   Dmadd4   Gm6      Bdim      C    
A|------0---------1---------2--3--1--|
E|---1--------0---------1------0-----|
C|-2--------2--------2---------0-----|
g|-----0--------0---------1----0-----|

[Dedilhado - Primeira Estrofe]
   Dmadd4   Gm6      Bdim      C    
A|------0---------1---------2----------3--|
E|---1--------0---------1----------0------|
C|-2--------2--------2-----------0–-------|
g|-----0--------0---------1----------0----|

[Primeira Parte]

  Dmadd4    Gm6 Bdim 
Quem sou eu
  C                             Dmadd4    Gm6 Bdim
Quem sou eu que já não mais me reconheço 
  C                            Dmadd4     Gm6 Bdim C 
Quem sou eu que já não sei mais se pertenço

                  Gm
De onde vem essa força?
                  Dm
De onde vem esse doce amor?
                  Gm         Bb     C
De onde vem essa dúvida tão súbita sobre tudo?

[Refrão 1]
      F            Gadd4 Gsus9 Bb7M         C
Este corpo já foi lar e  a__limento singular
       F          Gadd4  Gsus9 Bb7M %
Minha vida não é mais só u____ma

      F            Gadd4 Gsus9 Bb7M        C
Este corpo já foi lar e  a__limento singular
       F          Gadd4  Gsus9 Bb7M      C
Minha vida não é mais só uma,    somos duas

[Tab - Solo] 
   Dmadd4   Gm6 Bdim A7
A|------0---------1—-------2--------0--|
E|---1--------0--------1--------0------|
C|-2--------2--------2--------1--------|
g|-----0--------0--------1--------0----|

   Dmadd4   Gm6      Bdim      C    
A|------0---------1---------2--1--|
E|---1--------0---------1------0--|
C|-2--------2--------2---------0--|
g|-----0--------0---------1----0--|

 Gm                      
Mas se um dia a vida se foi
 Dm                                       
Sem ao menos se apresentar
 Gm                          
Saiba que ainda é grande o amor
         C          %
Ainda é seu este lugar

[Refrão 2]
      F            Gadd4 Gsus9 Bb7M       C
Este corpo já foi lar de uma  vida singular
       F          Gadd4  Gsus9 Bb7M       %        
Minha vida não é mais só uma
      F            Gadd4 Gsus9 Bb7M       C
Este corpo já foi lar e  a__limento singular
       F          Gadd4  Gsus9 Bb7M        C
Minha vida não é mais só uma,    somos muitas

[Ponte]

F               Gadd4
 Amor que transborda
Bbadd9          F
 Amor que Transforma
F               Gadd4
 Amor que Transporta
  Bb7M          %
Amor que é lar

[Refrão 3] 
      F            Gadd4 Gsus9 Bb7M       C
Este corpo já foi lar e  a__limento singular
       F          Gadd4  Gsus9 Bb7M %        
Minha vida não é mais só uma

      F  Am Dm C   G  Bb %
Este corpo já foi lar 
       F          Gadd4  Gsus9 Bb7M        C
Minha vida não é mais só uma,   somos muitas

[Ponte]

F               Gadd4
 Amor que transborda
Bbadd9          F
 Amor que Transforma
F               Gadd4
 Amor que Transporta
  Bb7M          %
Amor que é lar

F               Gadd4
 Amor que transborda
Bbadd9          F
 Amor que Transforma
F               Gadd4
 Amor que Transporta
  Bb7M          %    F
Amor que é lar


Aprenda suas primeiras músicas em menos de 30 dias e participe de uma comunidade incrível!
APROVEITE A PROMOÇÃO DO MÊS!

FAZER MATRÍCULA AGORA