Bem vindo ao mundo encantado das 4 cordinhas mágicas

Cifra ukulele: Luiz Gonzaga – Asa branca (com tablatura)

Cifra e tablatura da música Asa branca, de Luiz Gonzaga, para ukulele com afinação padrão (High G - C6)

Assista à vídeo aula clicando aqui.

Luiz Gonzaga
Asa branca

Introdução:

A|-8-5-7-3-5-2----5-2-3--5-2---|
E|-------------3-------------3-|
C|-----------------------------|
g|-----------------------------|

A|-8-5-7-3-5-2-3-0-2------------------|
E|-------------------3-5-3---3-3--3-3-|
C|-------------------------4----------|
g|------------------------------------|

   G            C          G    D7    G
A|-----2--5-5-2-3----------2--5-5---3-2-|
E|-3-5----------------3-5---------------|
C|--------------------------------------|
g|--------------------------------------|

         G7          C
A|-------2--5--5-3-2---3-|
E|-3-3-5-------------3---|
C|-----------------------|
g|-----------------------|

         D7         G
A|-2-2-----2----------|
E|-----5-5----5-5-3-3-|
C|--------------------|
g|--------------------|

A|-8-5-7-3-5-2-3-0-2-----------------------|
E|-------------------3-5-3---3-3--3-3--3-5-|
C|-------------------------4---------------|
g|-----------------------------------------|

         G             C
Quando oiei a terra ardendo
        G     D7      G
Qual fogueira de São João
      G7                C
Eu perguntei a Deus do céu, ai
          D7          G
Por quê tamanha judiação
      G7                C
Eu perguntei a Deus do céu, ai
          D7          G
Por quê tamanha judiação

A|-8-5-7-3-5-2-3-0-2-----------------------|
E|-------------------3-5-3---3-3--3-3--3-5-|
C|-------------------------4---------------|
g|-----------------------------------------|

        G             C
Que braseiro, que fornaia
        G      D7  G
Nem um pé de pran-ta-ção
            G7              C
Por farta d'água perdi meu gado
           D7           G
Morreu de sede, meu alazão
            G7              C
Por farta d'água perdi meu gado
           D7           G
Morreu de sede, meu alazão

A|-8-5-7-3-5-2-3-0-2-----------------------|
E|-------------------3-5-3---3-3--3-3--3-5-|
C|-------------------------4---------------|
g|-----------------------------------------|

      G            C
Inté mesmo a asa branca
      G    D7     G
Bateu asas do sertão
           G7              C
Entonce eu disse, adeus Rosinha
           D7           G
Guarda contigo meu coração
           G7              C
Entonce eu disse, adeus Rosinha
           D7           G
Guarda contigo meu coração

A|-8-5-7-3-5-2-3-0-2-----------------------|
E|-------------------3-5-3---3-3--3-3--3-5-|
C|-------------------------4---------------|
g|-----------------------------------------|

      G             C
Hoje longe, muitas légua
      G     D7   G
Numa triste solidão
          G7            C
Espero a chuva cair de novo
            D7             G
Pra mim voltar pro meu sertão
           G7           C
Espero a chuva cair de novo
            D7             G
Pra mim voltar pro meu sertão

A|-8-5-7-3-5-2-3-0-2-----------------------|
E|-------------------3-5-3---3-3--3-3--3-5-|
C|-------------------------4---------------|
g|-----------------------------------------|

          G             C
Quando o verde dos teus óio
       G       D7   G
Se espaiar na prantação
           G7             C
Eu te asseguro não chore não, viu?
           D7                  G
Que eu voltarei, viu, meu coração
           G7             C
Eu te asseguro não chore não, viu?
           D7                  G
Que eu voltarei, viu, meu coração

Final:

A|-8-5-7-3-5-2-3-0-2------------------|
E|-------------------3-5-3---3-3----3-|
C|-------------------------4------2---|
g|------------------------------------|

 

Print Friendly, PDF & Email
Compartilhe!

0 respostas em "Cifra ukulele: Luiz Gonzaga - Asa branca (com tablatura)"

    Deixe sua mensagem

    O seu endereço de e-mail não será publicado. Campos obrigatórios são marcados com *

    © 2015 - 2017 Toca Ukulele
    X